Wollt ihr das bett in flamen sehen - tab

22. května 2006 v 7:10 |  Tabulátory
 01 - Widbifs  
   
  Flake         [00:02<->00:30]   
 e|---------------------------| 
 B|---------------------------| 
 G|---------------------------| 
 D|---------------------------| 
 A|--5-----6-----5-------3/---| 
 D|-----0-----0-----0-0-------| 
   
  Richard               [00:31<->00:45]  
 e|-----------------------------------| 
 B|-----------------------------------| 
 G|---7---8---7-----5-----------------|  
 D|---7---8---7-----5-----------------|           
 A|---5---6---5-----3-----------------| 
 D|-----0---0---0-0-------------------| 
  |Wollt ihr das Bett in Flammen sehen| 
  |wollt ihr in Haut und Haaren unter.| 
  |ihr wollt doch auch den Dolch ins..| 
  |ihr wollt doch auch das Blut vom...| 
   
   
  Paul                                     [00:46<->00:49] 
 e|------------------------------------------------------| 
 B|------------------------------------------------------|  
 G|--10-10-10-10-10-10-10-10-10-10-10-10-10-10-10-10-----| 
 D|--10-10-10-10-10-10-10-10-10-10-10-10-10-10-10-10-----|           
 A|---8--8--8--8--8--8--8--8--8--8--8--8--8--8--8--8-----| 
 D|------------------------------------------------------| 
  |...............................................Ramm...| 
   
                         [03:03<->03:16] 
 e|------------------------------------| 
 B|------------------------------------| 
 G|------------------------------------| 
 D|----x--xx-3-x-3-x-3-----------------| 
 A|----x--xx-3-x-3-x-3-----------------| 
 D|----x--xx-3-x-3-x-3-----------------| 
  |Sex ist ein Schlacht................| 
|Liebe ist Krieg.....................|
 

Buď první, kdo ohodnotí tento článek.

Nový komentář

Přihlásit se
  Ještě nemáte vlastní web? Můžete si jej zdarma založit na Blog.cz.
 

Aktuální články

Reklama