Weisses fleisch - tab

22. května 2006 v 7:12 |  Tabulátory
 03 - Weisses Fleisch 
   
  Flake                                            [00:00<->00:22] 
 e|--------------------------------------------------------------| 
 B|--------------------------------------------------------------| 
 G|--------------------------------------------------------------| 
 D|--------------------------------------------------------------| 
 A|--9-9-9-10-9-9-9-10-9-9-9-10-9-9-9-10-------------------------| 
 D|--------------------------------------------------------------| 
   
                                           [00:22<->00:29] 
 e|----------------|-------------------------------------| 
 B|----------------|-------------------------------------| 
 G|----------------|------------------------------5^-----| 
 D|----------------|------4/5-----4/5-----4/5------------| 
 A|----------------|------4/5-----4/5-----4/5------------| 
 D|----------------|--4-4-4/5-4-4-4/5-4-4-4/5------------| 
  |Weißes Fleisch.!|.....................................| 
                                                                      [00:30<->00:58]  
 e|----------------------------------------------------------------------| 
 B|----------------------------------------------------------------------| 
 G|----------------------------------------|--------------------------5^-| 
 D|----------------------------------------|------4/5-----4/5-----4/5----| 
 A|----------------------------------------|------4/5-----4/5-----4/5----| 
 D|----------------------------------------|--4-4-4/5-4-4-4/5-4-4-4/5----| 
  |Du auf dem Schulhof ich zum Töten bereit| 
   
 [02:02<->02:12]  
 e|-----------------------------------------------| 
 B|-----------------------------------------------| 
 G|-----------------------------------------------| 
 D|-0-----7--5-|-2----------2/7-|-5---------------| 
 A|-0-----7--5-|-2----------2/7-|-5---------------| 
 D|-0-----7--5-|-2----------2/7-|-5---------------| 
   
  Richard                       [02:17<->02:31] 
 e|-------------------------------------------| 
 B|--17b-17b-17b-17-14-17b-17b-17b-17p14------| 
 G|--------------------------------------16---| 
 D|-------------------------------------------| 
 A|-------------------------------------------| 
 D|-------------------------------------------| 
   
 e|--------------------------------------17b---| 
 B|--17b-17b-17b-17-14-17b-17b-17b-17p14-------| 
 G|--------------------------------------------| 
 D|--------------------------------------------| 
 A|--------------------------------------------| 
 D|--------------------------------------------| 
   
 e|-------------------------------------------| 
 B|--17b-17b-17b-17-14-17b-17b-17b-17p14------| 
 G|--------------------------------------16---| 
 D|-------------------------------------------| 
 A|-------------------------------------------| 
 D|-------------------------------------------| 
   
 e|--17p14-17p14--------------------------------| 
 B|--------------17p14-17p14-----14-------------| 
 G|---------------------------16----16-14-16b---| 
 D|---------------------------------------------| 
 A|---------------------------------------------| 
 D|---------------------------------------------| 
   
 e|----------------------------------------------| 
 B|----------------------------------------------| 
 G|--16p14-16p14---------------------------------| 
 D|--------------16p14-16p14------14-------------| 
 A|----------------------------16----16-14-16b---| 
 D|----------------------------------------------| 
   
  Paul                   [02:17<->02:31] 
 e|------------------------------------| 
 B|------------------------------------| 
 G|------------------------------------| 
 D|------------------------------------| 
 A|--2-4-5-4-2-4-5-4-2-4-5-4-2-4-5-4---| 
 D|--2-4-5-4-2-4-5-4-2-4-5-4-2-4-5-4---| 
   
 e|------------------------------| 
 B|------------------------------| 
 G|------------------------------| 
 D|------------------------------| 
 A|--3-4-3-4-3-4-3-4-3-4-3-4-3---| 
 D|--3-4-3-4-3-4-3-4-3-4-3-4-3---| 
 

Buď první, kdo ohodnotí tento článek.

Nový komentář

Přihlásit se
  Ještě nemáte vlastní web? Můžete si jej zdarma založit na Blog.cz.
 

Aktuální články

Reklama