Tu quiero puta - tab

23. května 2006 v 12:46 |  Tabulátory
 Artist: Rammstein 
 Album:  Rosenrot 
 Title:  Te quiero puta 
  
 Tuning: C-G-C-F-A-D 
  
 Adelante amigos... 
 d|----------------------------[Giriş/Intro]-| 
 A|------------------------------------------| 
 F|------------------------------------------| 
 C|-1-----|----------------------------------| 
 G|-1-----|-0h1p0-0h1p0-0h1p0-0h1p0-1p0-1p0--| 
 C|-1-----|-0h1p0-0h1p0-0h1p0-0h1p0-1p0-1p0--| 
  
  
 d|--------------[Bridge/Köprü]-| 
 A|-----------------------------| 
 F|-----------------------------| 
 C|-----------------------------| 
 G|-----------------------------| 
 C|-0-3-1-0-1-0x-0x-0x-1-0-1-0--| 
  |Dame de tu fruta.............|  
  |Vamos mi amor................| 
  
  
 d|---------------[Dize/Verse]-| 
 A|----------------------------| 
 F|----------------------------| 
 C|----------------------------| 
 G|-0-3-1-0-1-0x-0x-0x-1-0-1-0-| 
 C|-0-3-1-0-1-0x-0x-0x-1-0-1-0-| 
  |Te quiero puta!.............| 
  |Te quiero puta!.............| 
  |.................Ay que rico|                 
  
 d|----------------------------------------------------------| 
 A|----------------------------------------------------------| 
 F|----------------------------------------------------------| 
 C|-1------------------------|-------------------------------| 
 G|-1------------------------|-0-3-1-0-1-0x-0x-0x-0-1-0-1-0--| 
 C|-1------------------------|-0-3-1-0-1-0x-0x-0x-0-1-0-1-0--| 
  |Entre tus piernas voy a llo|rar...........................|  
  |Feliz y triste voy a es....|tar...........................|  
                                                            
 d|-------------------------------| 
 A|-------------------------------| 
 F|-------------------------------| 
 C|-1---------------------|-0-----| 
 G|-1---------------------|-0-----| 
 C|-1---------------------|-0-----| 
  |Feliz y triste voy a es|tar....| 
  
  
 d|------------------------------------------| 
 A|------------------------------------------| 
 F|------------------------------------------| 
 C|--x--x--x---x--x--x--|--x--x--x---x--x--x-| 
 G|--x--x--x---x--x--x--|--x--x--x---x--x--x-| 
 C|--x--x--x---x--x--x--|--x--x--x---x--x--x-| 
  |Más más más por favor|Más más más sí señor| 
  |Más más más por favor|Más más más sí señor| 
  
 d|-------------------------------------------------| 
 A|-------------------------------------------------| 
 F|-------------------------------------------------| 
 C|--x--x--x---x--x--x--|-x--x--x--x--7-8-7---------| 
 G|--x--x--x---x--x--x--|-x--x--x--x---------9-8-6--| 
 C|--x--x--x---x--x--x--|-x--x--x--x----------------| 
  |.................................................| 
  |No me tengas miedo.......No te voy a comer.......| 
  
 d|------------------------------------------| 
 A|------------------------------------------| 
 F|------------------------------------------| 
 C|--x--x--x--x--x--x---|--x--x--x--x--x--x--| 
 G|--x--x--x--x--x--x---|--x--x--x--x--x--x--| 
 C|--x--x--x--x--x--x---|--x--x--x--x--x--x--| 
  |Más más más por favor|Más más más sí señor| 
  
 d|------------------------------------------| 
 A|------------------------------------------| 
 F|------------------------------------------| 
 C|--x--x--x---x--x--x--|--x--x--x---x--x--x-| 
 G|--x--x--x---x--x--x--|--x--x--x---x--x--x-| 
 C|--x--x--x---x--x--x--|--x--x--x---x--x--x-| 
  |..........................................| 
  |...............................Sí sí señor| 
  
 d|----------------------------------| 
 A|----------------------------------| 
 F|----------------------------------| 
 C|----------------------------------| 
 G|-0h1p0-0h1p0-0h1p0-0h1p0-1p0-1p0--| 
C|-0h1p0-0h1p0-0h1p0-0h1p0-1p0-1p0--|
 

Buď první, kdo ohodnotí tento článek.

Nový komentář

Přihlásit se
  Ještě nemáte vlastní web? Můžete si jej zdarma založit na Blog.cz.
 

Aktuální články

Reklama