Tier - tab

22. května 2006 v 7:27 |  Tabulátory
 Tier   Tab by Rammstein 
   
 Artist: Rammstein 
 Album:  Sehnsucht 
 Title:  Tier 
   
 INTRO 
 e|--------------------------------------------------| 
 B|--------------------------------------------------| 
 G|-5/7-7-7-5/7-7-7-8-7-5/7-5/7-7-7-5/7-7-7-8-9-7----| 
 D|-5/7-7-7-5/7-7-7-8-7-5/7-5/7-7-7-5/7-7-7-8-9-7----| 
 A|-3/5-5-5-3/5-5-5-6-5-3/5-3/5-5-5-3/5-5-5-6-8-5----| 
 E|--------------------------------------------------|x6 
 CHORUS 
 e|---------------------------------------------------------| 
 B|---------------------------------------------------------| 
 G|---------------3-3-3-3-3-3-3-5-5-5-5-5-5-5---------------| 
 D|-5-5-5-5-5-5-5-3-3-3-3-3-3-3-5-5-5-5-5-5-5-3-3-3-3-3-3-3-| 
 A|-5-5-5-5-5-5-5-1-1-1-1-1-1-1-3-3-3-3-3-3-3-3-3-3-3-3-3-3-| 
 E|-3-3-3-3-3-3-3-----------------------------1-1-1-1-1-1-1-|X2 
   PM...................................................... 
 BRIDGE 
 e|---------| 
 B|---------| 
 G|---------| 
 D|-7/9-7/9-| 
 A|-7/9-7/9-| 
 E|-5/7-5/7-|X2 
   
 4. Bestrafe Mich   Tab by Rammstein 
   
 Artist: Rammstein 
 Album:  Sehnsucht 
 Title:  Bestrafe Mich 
   
 Drop D tuning 
   
 Riff 1 
 ||--------------------------------------------------||.||---------------|| 
 ||--------------------------------------------------||.||---------------|| 
 ||--------------------------------------------------||.||---------------|| 
 ||--------------------------------------------------||.||-------------2-|| 
 ||-2-2-2--2-2--2-2-2--2-2--2-2-2--2-2--2/5-2--2--2--||.||-5-4-3-5-4-3-2-|| 
 ||-2-2-2--2-2--2-2-2--2-2--2-2-2--2-2--2/5-2--2--2--||.||-5-4-3-5-4-3-2-|| 
    pm................................]     pm.....]       pm.........] 
   
 Verse 
 ||----------------------------------|| 
 ||----------------------------------|| 
 ||----------------------------------|| 
 ||----------------------------------|| 
 ||-2-2--2-2-2--2-2--2-2--2-2-2--1-0-|| 
 ||-2-2--2-2-2--2-2--2-2--2-2-2--1-0-|| 
    pm..............................] 
   
 Chorus 
 ||------------------------------------------|| 
 ||------------------------------------------|| 
 ||----------4----------5---------9----------|| 
 ||-2--------4----------5---------9----------|| 
 ||-2--------2----------3---------7----------|| 
 ||-2----------------------------------------|| 
   
 

Buď první, kdo ohodnotí tento článek.

Nový komentář

Přihlásit se
  Ještě nemáte vlastní web? Můžete si jej zdarma založit na Blog.cz.
 

Aktuální články

Reklama