Stirb nicht vor mir/Don´t lie before i do - tab

23. května 2006 v 12:44 |  Tabulátory
  Artist: Rammstein  
  Album:  Rosenrot  
  Title:  Stirb nicht vor mir/Don´t lie before i do    
     
  Tuning: E-A-D-G-H-E  
     
     
  -----5-------5-------5-------5-------5-------5--------------------  
  ---7---7---7---7---7---7---7---7---7---7---7---7---2-3-2---2-3-2--  
  -7-------7-------6-------6-------7-------7-------4-------4--------  
  ------------------------------------------------------------------  
  ------------------------------------------------------------------  
  ------------------------------------------------------------------  
     
  Or verse  
  e-----------------------------------------------------|  
  B------10---------10----------10----------10----------|  
  G----11--11----11----11----11----11----11----11-------|  
  D--12-------12----------11----------11----------------|  
  A-----------------------------------------------------|  
  E-----------------------------------------------------|  
     
  e-----------------------------------------------------|  
  B------10---------------------------------------------|  
  G----11--11--------------------------------------4s6b-|  
  D--12------12--9--11--12--11---9--11--12--11--7-------|  
  A-----------------------------------------------------|  
  E-----------------------------------------------------|  
     
  G          F#7                  Bm  
  Die Nacht öffnet ihren Schoß  
  G               F#7   Bm  
  Das Kind heißt Einsamkeit  
  G      F#7           Bm  
  Es ist kalt und regungslos  
      G      F#m7            Bm  
  Ich weine leise in die Zeit  
     
      G           F#7    Bm  
  Ich weiß nicht wie du heißt  
            G          F#7          Bm  
  Doch ich weiß, dass es dich gibt  
      Em          Em7   Bm  
  Ich weiß, dass irgendwann  
  G               F#  
  Irgendwer mich liebt  
     
  He comes to me every night  
  No words are left to say  
  With his hands around my neck  
  I close my eyes and pass away  
     
  I don´t know who he is  
  In my dreams he does exist  
  His passion is a kiss  
  And I can not resist  
     
  Bm  F#m  
  Ich warte hier  
  G              Em  
  Don´t die before I do  
  Bm  F#m  
  Ich warte hier  
  G                 A  
  Stirb nicht vor mir  
     
    D                F#  
  I don´t know who you are  
    G                Em  
  I know that you exist  
  (Stirb nicht)  
      D                 F#  
  Sometimes love seems so far  
  (Ich warte hier)  
       G             Em  
  Your love I can´t dismiss  
     
  G   F#m  
  Ich warte hier  
     
  G    F#7      Bm  
  Alle Häuser sind verschneit  
  G           F#7             Bm  
  Und in den Fenstern Kerzenlicht  
  G    F#7           Bm  
  Dort liegen sie zu zweit  
      G                     F#  
  Und ich, ich warte nur auf dich  
     
  Ich warte hier  
  Don´t die before I do  
  Ich warte hier  
  Stirb nicht vor mir  
     
    Bm                  F#m7  
  I don´t know who you are  
    G             Em  
  I know that you exist  
  (Stirb nicht)  
      Bm                 F#7  
  Sometimes love seems so far  
  (Ich warte hier)  
       G             A  
  Your love I can´t dismiss  
                    Bm  
  Stirb nicht vor mir  
 

1 člověk ohodnotil tento článek.

Nový komentář

Přihlásit se
  Ještě nemáte vlastní web? Můžete si jej zdarma založit na Blog.cz.
 

Aktuální články

Reklama