Spring - tab

23. května 2006 v 12:43 |  Tabulátory
 Artist: Rammstein 
 Album:  Rosenrot 
 Title:  Spring 
   
 Tuning: C-G-C-F-A-D 
   
 Chorus: 
 D|---------------------------------------------------------------| 
 A|---------------------------------------------------------------| 
 F|---------------------------------------------------------------| 
 C|0-0-0-0-1-0-0-0-0-0-0-0-1-0-0-0-0-0-0-0-1-0-0-0-0-0-0-0-1-0-0-0|  
 G|0-0-0-0-1-0-0-0-0-0-0-0-1-0-0-0-0-0-0-0-1-0-0-0-0-0-0-0-1-0-0-0| 
 C|0-0-0-0-1-0-0-0-0-0-0-0-1-0-0-0-0-0-0-0-1-0-0-0-0-0-0-0-1-0-0-0| 
     | | |   | |     | | |   | |     | | |   | |     | | |   | | 
     | | |   | |     | | |   | |     | | |   | |     | | |   | | 
                  P  a  l  m    M  u t e   T h e s e 
   
 And after that: 
 D|-----------------------------------------------| 
 A|-----------------------------------------------| 
 F|-----------------------------------------------| 
 C|10-10-10-10-10-10-10-10-10-12-12-12-12-12-12-12|  
 G|10-10-10-10-10-10-10-10-10-12-12-12-12-12-12-12| 
 C|10-10-10-10-10-10-10-10-10-12-12-12-12-12-12-12| 
   
 But one guitar do: 
 D|-----------------------------------------------| 
 A|-----------------------------------------------| 
 F|-----------------------------------------------| 
 C|10-10-10-10-10-10-10-10-10-10-10-10-10-10-10-10|  
 G|10-10-10-10-10-10-10-10-10-10-10-10-10-10-10-10| 
 C|10-10-10-10-10-10-10-10-10-10-10-10-10-10-10-10| 
   
 Verse: Clean guitar. 
 D|---------------------5----------| 
 A|----1---(3)--------------1---(3)| 
 F|--2----2-----------2------------| 
 C|----------------0---------------|  
 G|--------------------------------| 
 C|--------------------------------| 
 Let (3) ring a bit. 
   
 Bridge: 
 D|------------------------------------------------| 
 A|------------------------------------------------| 
 F|------------------------------------------------| 
 C|121212121212121210101010101010105555555577777777| 
 G|121212121212121210101010101010105555555577777777| 
 C|121212121212121210101010101010105555555577777777|  
 "Heimlich schiebt sich eine Wolke.." 
   
 And the last bit: 
 D|------------------------------------| 
 A|------------------------------------| 
 F|------------------------------------| 
 C|10101010101010101010101010101010-(0)| 
 G|10101010101010101010101010101010-(0)| 
 C|10101010101010101010101010101010-(0)| 
   
 "Doch tausend Sonnen brennen nur für dich" 
 Let (0) ring and bit then stop the note. 
   
 Solo: Like the verse, just elektric :D 
 Rythm: Chorus. 
   
   
 

Buď první, kdo ohodnotí tento článek.

Nový komentář

Přihlásit se
  Ještě nemáte vlastní web? Můžete si jej zdarma založit na Blog.cz.
 

Aktuální články

Reklama