Spiel mit mir - tab

22. května 2006 v 7:28 |  Tabulátory
 Artist: Rammstein 
 Album:  Sehnsucht 
 Title:  Spiel Mit Mir 
   
 INTRO 
 e|--------------------------------------------------------------| 
 B|--------------------------------------------------------------| 
 G|--------------------------------------------------------------| 
 D|-2-2-2---2-2-2---2-2-2---2-2-2---2-2-2---3-3-3---3-3-3--------| 
 A|-2-2-2---2-2-2---2-2-2---2-2-2---2-2-2---3-3-3---3-3-3--------| 
 E|-0-0-0---0-0-0---0-0-0---0-0-0---0-0-0---1-1-1---1-1-1--------| 
    PM...   PM...   PM...   PM...   PM...   PM...   PM...   
   
 PRE-CHORUS                                            
 e|----------------------------------------------------------------------------| 
 B|----------------------------------------------------------------------------| 
 G|----------------------------------------------------------------------------| 
 D|-7-7-7---7-7-7---7-7-7---7-7-7-7-7---8-8-8---5-5-5---7-7-7---7-7-7---7-7-7--| 
 A|-7-7-7---7-7-7---7-7-7---7-7-7-7-7---8-8-8---5-5-5---7-7-7---7-7-7---7-7-7--| 
 E|-5-5-5---5-5-5---5-5-5---5-5-5-5-5---6-6-6---3-3-3---5-5-5---5-5-5---5-5-5--| 
    PM...   PM...   PM...   PM.......   PM...   PM...   PM...   PM....  PM...    
   
 e|----------------| 
 B|----------------| 
 G|----------------| 
 D|-7-7-7-7-7---8--| 
 A|-7-7-7-7-7---8--| 
 E|-5-5-5-5-5---6--| 
    PM.......   . 
   
 CHORUS 
 e|-------------------------------------| 
 B|-------------------------------------| 
 G|-------------------------------------| 
 D|-9-9-9--2-2-2--7-7-7--3-3-3--2-2-2---| 
 A|-9-9-9--2-2-2--7-7-7--3-3-3--2-2-2---| 
 E|-7-7-7--0-0-0--5-5-5--1-1-1--0-0-0---| 
    PM...  PM...  PM...  PM...  PM... 
   
 SOLO 
 e|----------------------------------------------------------------------------| 
 B|-13-12-13-12-13-12-13-12-13-12-13-12-13-12-13-12-11-12-11-12-11-12-11-12/15^| 
 G|----------------------------------------------------------------------------| 
 D|----------------------------------------------------------------------------| 
 A|----------------------------------------------------------------------------| 
E|----------------------------------------------------------------------------|
 

Buď první, kdo ohodnotí tento článek.

Nový komentář

Přihlásit se
  Ještě nemáte vlastní web? Můžete si jej zdarma založit na Blog.cz.
 

Aktuální články

Reklama