Sehnsucht - tab

22. května 2006 v 7:24 |  Tabulátory
Artist: Rammstein 
Album:  Sehnsucht 
Title:  Sehnsucht 
   
 Standard Tuning 
 |-e-| 
 |-B-| 
 |-G-| 
 |-D-| 
 |-A-| 
 |-E-| 
   
 Main Riff: 
   
 ||--------------------------------------|| 
 ||------------------------------X-X-----|| 
 ||-------9-8---10-8---12-----10-X-X-9-7-|| 
 ||-------9-8---10-8---12-----10-X-X-9-7-|| 
 ||-------7-6----8-7---10------8-X-X-7-5-|| 
 ||-0-0-0-----0------0----0-0------------|| 
    pm...]    pm     pm   pm.] 
   
   
 Begin when they start chant Sehnsucht. 
 ||-------------------------------|| 
 ||-------------------------------|| 
 ||-9-----9-----9---9-----9-------|| 
 ||-9-----9-----9---9-----9-------|| 
 ||-7-----7-----7---7-----7-5-4-3-|| 
 ||---0-0---0-0---0---0-0---3-2-1-|| 
      pm.]  pm.]  pm  pm.]  pm...] 
   
 Fill Chords 
 ||---------------------------------------|| 
 ||---------------------------------------|| 
 ||-9-------5--------7--------------------|| 
 ||-9-------5--------7----------7---------|| 
 ||-7-------3--------5----------7---------|| 
 ||-----------------------------5---------|| 
   
 Second Chorus 
 ||------------------------------------------------------|| 
 ||------------------------------------------------------|| 
 ||---------------------------------5---5-4-2------------|| 
 ||-2---------------2---------------5---5-4-2------------|| 
 ||-2------5-5-4-3--2------5-5-4-3--3---3-2-0----5-5-4-3-|| 
 ||-0------3-3-2-1--0------3-3-2-1---------------3-3-2-1-|| 
           pm.....]        pm.....]              pm.....] 
   
   
 

Buď první, kdo ohodnotí tento článek.

Nový komentář

Přihlásit se
  Ještě nemáte vlastní web? Můžete si jej zdarma založit na Blog.cz.
 

Aktuální články

Reklama