Reise,Reise - tab

22. května 2006 v 17:46 |  Tabulátory
  Author/Artist: Rammstein  
  Title: Reise Reise  
  Album: Reise Reise  
     
  C-G-C-F-A-D  
     
  -|----------------------------------------------------------------------------|  
  -|----------------------------------------------------------------------------|  
  -|----------------------------------------------------------------------------|  
  -|----------------------------------------------------------------------------|  
  -|----------------------------------------------------------------------------|  
  -|-1-4-8-6----1-1-11-11-------------------------------------------------------|  
     
     
  -|-----------------------------------------------------------------------------|  
  -|-----------------------------------------------------------------------------|  
  -|-----------------------------------------------------------------------------|  
  -|-1-4-8-6---------------------------------------------------------------------|  
  -|-1-4-8-6---------------------------------------------------------------------|  
  -|-1-4-8-6---------------------------------------------------------------------|  
     
     
  -|----------------------------------------------------------------------------|  
  -|----------------------------------------------------------------------------|  
  -|----------------------------------------------------------------------------|  
  -|-1-1-1-1-11-11-11-11--------------------------------------------------------|  
  -|-1-1-1-1-11-11-11-11--------------------------------------------------------|  
  -|-1-1-1-1-11-11-11-11--------------------------------------------------------|  
     
     
  -|-----------------------------------------------------------------------------|  
  -|-----------------------------------------------------------------------------|  
  -|-----------------------------------------------------------------------------|  
  -|-1-0-1--1-1-0-1-2-1--1/2-0---------------------------------------------------|  
  -|-1-0-1--1-1-0-1-2-1--1/2-0---------------------------------------------------|  
  -|-1-0-1--1-1-0-1-2-1--1/2-0---------------------------------------------------|  
     
  outro for guitar  
     
  1|--4-6-7-6---------------4-6-7-6-9-11--11-13-9------------------|  
  2|4----------7-6-7-6----4----------------------------------------|  
  3|-------------------3-6--------------11-------------------------|  
  4|---------------------------------------------------------------|  
  5|---------------------------------------------------------------|  
6|---------------------------------------------------------------|
 

Buď první, kdo ohodnotí tento článek.

Nový komentář

Přihlásit se
  Ještě nemáte vlastní web? Můžete si jej zdarma založit na Blog.cz.
 

Aktuální články

Reklama