Rein Raus - tab

22. května 2006 v 17:43 |  Tabulátory
 Artist: Rammstein 
 Album:  Mutter 
 Title:  Rein Raus 
   
 ( Drop D tuning ) 
   
 Intro 
           
  e------------------------ 
  B------------------------ 
  G------------------------ 
  D-6--6--6--6--3--2--3--5- 
  A-6--6--6--6--3--2--3--5- 
  D-6--6--6--6--3--2--3--5- 
        
  Verse 1&2 
           
  e--------------------------- 
  B--------------------------- 
  G--------------------------- 
  D-1--0--1--0--1--0--1-3-1-0- 
  A-1--0--1--0--1--0--1-3-1-0- 
  D-1--0--1--0--1--0--1-3-1-0- 
            
  Chorus 1 
            
  e-------------------------- 
  B-------------------------- 
  G-------------------------- 
  D-6--6--6--6--3--2--3--5--- 
  A-6--6--6--6--3--2--3--5--- 
  D-6--6--6--6--3--2--3--5--- 
            
  Chorus 2 
           
  e----------------------- 
  B----------------------- 
  G----------------------- 
  D-7--9--9--9--10--12--9- 
  A-7--9--9--9--10--12--9- 
  D-7--9--9--9--10--12--9- 
           
  Verse 3 
            
  e-7---5---8--7--5--10--8- 
  B---8---7---------------- 
  G------------------------ 
  D------------------------ 
  A------------------------ 
  D------------------------ 
            
  Chorus 3 
            
  Guitar 1 
           
  e--------------------------------- 
  B--------------------------------- 
  G--------------------------------- 
  D-2-2------2-2-------2-2------2-2- 
  A-2-2------2-2-------2-2------2-2- 
  D-2-2------2-2-------2-2------2-2- 
            
  Guitar 2 
         
  B-9-9-9-9-9-9-9-9-9-9-9-9-9-9-9- 
            
  Solo 
           
  Guitar 1 
            
  e---------------------- 
  B---------------------- 
  G---------------------- 
  D-3--2--3--5--3--6-6-6- 
  A-3--2--3--5--3--6-6-6- 
  D-3--2--3--5--3--6-6-6- 
            
  Guitar 2 
           
  e----------------------------------------------------------- 
  B-10-9-9-10-9-9-10-9-10-9-9----10-9-9-10-9-9-10-9-10-9-9-13- 
  G---------------------------9------------------------------- 
  D----------------------------------------------------------- 
  A----------------------------------------------------------- 
  D----------------------------------------------------------- 
            
  Chorus 4 
            
  e---------- 
  B---------- 
  G---------- 
  D-5-5-6-8-- 
  A-5-5-6-8-- 
  D-5-5-6-8-- 
            
  Final Chorus 
            
  e--------------- 
  B--------------- 
  G--------------- 
  D-3--2--3--5--3- 
  A-3--2--3--5--3- 
  D-3--2--3--5--3- 
 

Buď první, kdo ohodnotí tento článek.

Nový komentář

Přihlásit se
  Ještě nemáte vlastní web? Můžete si jej zdarma založit na Blog.cz.
 

Aktuální články

Reklama