Rammstein - tab

22. května 2006 v 7:23 |  Tabulátory
11 - Rammstein
     
                           [Mortal Intro]  
  e|------------------------------------|  
  B|------------------------------------|  
  G|------------------------------------|  
  D|------------------------------------|  
  A|--7----------------8----------------|  
  E|--------0-----0---------------------|  
     
                                                   [Main]  
  e|----------------------------------------------------|  
  B|----------------------------------------------------|  
  G|----------------------------------------------------|  
  D|--------9/10----------9/10----------9/10-x--10/9----|  
  A|--------7/8-----------7/8-----------7/8--x---8/7----|  
  E|--0--0----------0--0----------0--0-------x----------|  
   |Rammstein...........................................|  
   |Ein Mensch brennt...................................|  
   |....................................................|  
     
     
                                  [Bridge]      
  e|------------------|------------------|  
  B|------------------|------------------|  
  G|------------------|------------------|  
  D|------------------|------------------|  
  A|--3-2-x-----------|--222222-5--2--x--|  
  E|--1-0-x-----------|--000000-3--0--x--|  
     
     
   [Solo]                    
   [part I]      
  e|--7p0-9p0-10p0-9p0-7p0-9p0-10p0-9p0-7p0-9p0-10p0-9p0-7p0-9p0-7p0-9p0-|  
  B|---------------------------------------------------------------------|  
  G|---------------------------------------------------------------------|  
  D|---------------------------------------------------------------------|  
  A|---------------------------------------------------------------------|  
  E|---------------------------------------------------------------------|  
     
   (-----------------------------------------------------------[1x]------)  
  e|--7p0-9p0-10p0-9p0-7p0-9p0-10p0-9p0----------------------------------|  
  B|------------------------------------0h7-8p0-10p0-8p0-0-7/8vvvvvvvvv|  
  G|---------------------------------------------------------------------|  
  D|---------------------------------------------------------------------|  
  A|---------------------------------------------------------------------|  
  E|---------------------------------------------------------------------|  
     
  e|----------------------------|--------------------------------------|  
  B|vvvvvvvvvvvvvvvvvvvvvvvvvv7/8vvvvvvvvvvvvvvvvvvvvvvvvvvvvvvvvvvvv|  
  G|----------------------------|--------------------------------------|  
  D|----------------------------|--------------------------------------|  
  A|----------------------------|--------------------------------------|  
  E|----------------------------|--------------------------------------|  
     
   [part II]  
  e|---------------------------------|---------------------------------------|  
  B|5-5-5-5-5-5-5-5-5-5-5-5-8-8-3-3-3/5-5-5-5-5-5-5-5-10-10-10-10-13-13-13-13|  
  G|---------------------------------|---------------------------------------|  
  D|---------------------------------|---------------------------------------|  
  A|---------------------------------|---------------------------------------|  
  E|---------------------------------|---------------------------------------|  
     
  e|-----------------------------------|-------------------------------|  
  B|--5-5-5-5-5-5-5-5-5-5-5-5-8-8-3-3-3/5-5-5-5-5-5-5-5-0-0-0-0-1-1-1-1|  
  G|-----------------------------------|-------------------------------|  
  D|-----------------------------------|-------------------------------|  
  A|-----------------------------------|-------------------------------|  
  E|-----------------------------------|-------------------------------|  
     
  e|---------------------------------|---------------------------------------|  
  B|5-5-5-5-5-5-5-5-5-5-5-5-8-8-3-3-3/5-5-5-5-5-5-5-5-10-10-10-10-13-13-13-13|  
  G|---------------------------------|---------------------------------------|  
  D|---------------------------------|---------------------------------------|  
  A|---------------------------------|---------------------------------------|  
  E|---------------------------------|---------------------------------------|  
     
  e|-----------------------------------|-------------------------------|  
  B|--5-5-5-5-5-5-5-5-5-5-5-5-8-8-3-3-3/5-5-5-5-5-5-5-5-0-0-0-0-1-1-1-1|  
  G|-----------------------------------|-------------------------------|  
  D|-----------------------------------|-------------------------------|  
  A|-----------------------------------|-------------------------------|  
  E|-----------------------------------|------------------------------- 
 

Buď první, kdo ohodnotí tento článek.

Nový komentář

Přihlásit se
  Ještě nemáte vlastní web? Můžete si jej zdarma založit na Blog.cz.
 

Aktuální články

Reklama