Nebel - tab

22. května 2006 v 17:44 |  Tabulátory
 Artist: Rammstein 
 Album:  Mutter 
 Title:  Nebel 
   
 (Standart tuning ) 
   
   
            
    e----------------- 
    B-1-------------1- 
    G-2--7--9--4--5-2- 
    D-2--7--9--4--5-2- 
    A-0--5--7--2--3-0- 
    E----------------- 
            
    After Chorus 
            
    B-10~ 
            
    Solo 
            
    e---------------------------------------------------------------------- 
    B-10-10-10-10-10-10-10-8-5-5-5-5-5-3-3-3-3-5-5-5-5-5-0-0-0-0-1-1-1-/10~ 
    G---------------------------------------------------------------------- 
    D---------------------------------------------------------------------- 
    A---------------------------------------------------------------------- 
E------------------------------------------------------------------------------------------------------------------------------
 

Buď první, kdo ohodnotí tento článek.

Nový komentář

Přihlásit se
  Ještě nemáte vlastní web? Můžete si jej zdarma založit na Blog.cz.
 

Aktuální články

Reklama