Mein Teil - tab

22. května 2006 v 17:47 |  Tabulátory
   Author/Artist: Rammstein   
   Title: Mein Teil   
   Album: Reise Reise   
       
   C-G-C-F-A-D   
       
   -|----------------------------------------------------------------------------|   
   -|----------------------------------------------------------------------------|   
   -|----------------------------------------------------------------------------|   
   -|-2p0-2-2p0-2-5-2p0-2-2p0-2--------------------------------------------------|   
   -|-2p0-2-2p0-2-5-2p0-2-2p0-2--------------------------------------------------|   
   -|-2p0-2-2p0-2-5-2p0-2-2p0-2--------------------------------------------------|   
       
       
   -|----------------------------------------------------------------------------|   
   -|----------------------------------------------------------------------------|   
   -|----------------------------------------------------------------------------|   
   -|-2p0-2-2p0-2-5-2p0-2-2p-2--2------------------------------------------------|   
   -|-2p0-2-2p0-2-5-2p0-2-2p-2--2------------------------------------------------|   
   -|-2p0-2-2p0-2-5-2p0-2-2p-2--2------------------------------------------------|   
       
       
   -|----------------------------------------------------------------------------|   
   -|----------------------------------------------------------------------------|   
   -|----------------------------------------------------------------------------|   
   -|-2222-2p0-2-2p0-2-----------------------------------------------------------|   
   -|-2222-2p0-2-2p0-2-----------------------------------------------------------|   
   -|-2222-2p0-2-2p0-2-----------------------------------------------------------|   
       
       
   -|----------------------------------------------------------------------------|   
   -|----------------------------------------------------------------------------|   
   -|----------------------------------------------------------------------------|   
   -|22222222--------------------------------------------------------------------|   
   -|22222222--------------------------------------------------------------------|   
   -|22222222--------------------------------------------------------------------|   
    pm.......   
       
   -|----------------------------------------------------------------------------|   
   -|----------------------------------------------------------------------------|   
   -|----------------------------------------------------------------------------|   
   -|-2p0-2-2p0-2-5-2p0-2-2p0-2-0-0-3-3------------------------------------------|   
   -|-2p0-2-2p0-2-5-2p0-2-2p0-2-0-0-3-3------------------------------------------|   
   -|-2p0-2-2p0-2-5-2p0-2-2p0-2-0-0-3-3------------------------------------------|   
       
       
   -|----------------------------------------------------------------------------|   
   -|----------------------------------------------------------------------------|   
   -|----------------------------------------------------------------------------|   
   -|-2p0-2-2p0-2-5-2p0-2-2p0-2-3-3-0-0-0-0--2-----------------------------------|   
   -|-2p0-2-2p0-2-5-2p0-2-2p0-2-3-3-0-0-0-0--2-----------------------------------|   
   -|-2p0-2-2p0-2-5-2p0-2-2p0-2-3-3-0-0-0-0--2-----------------------------------|   
       
       
   -|----------------------------------------------------------------------------|   
   -|----------------------------------------------------------------------------|   
   -|----------------------------------------------------------------------------|   
   -|-22222222-3333-7777---------------------------------------------------------|   
   -|-22222222-3333-7777---------------------------------------------------------|   
   -|-22222222-3333-7777---------------------------------------------------------|   
       
       
 

Buď první, kdo ohodnotí tento článek.

Nový komentář

Přihlásit se
  Ještě nemáte vlastní web? Můžete si jej zdarma založit na Blog.cz.
 

Aktuální články

Reklama