Mann gegen Mann - tab

23. května 2006 v 12:41 |  Tabulátory
   Artist: Rammstein   
   Album:  Rosenrot   
   Title:  Mann gegen Mann   
       
   Tuning: C-G-C-F-A-D   
       
   Main riff and Chrous:   
   D|-------------|   
   A|-------------|   
   F|-------------|   
   C|0-8-0-5-0-3-5|   
   G|0-8-0-5-0-3-5|   
   C|0-8-0-5-0-3-5|   
       
   Bridge:   
   D|---------------------------------------------------|   
   A|---------------------------------------------------|   
   F|---------------------------------------------------|   
   C|10-12-12-12-12-12---10-12-12-12-12-12---10-12-12-12|   x2   
   G|10-12-12-12-12-12---10-12-12-12-12-12---10-12-12-12|   
   C|10-12-12-12-12-12---10-12-12-12-12-12---10-12-12-12|   
       
       
   D|------------------------------------------------------|   
   A|------------------------------------------------------|   
   F|------------------------------------------------------|   
   C|10-8-8-8-8-8--10-8-8-8-8-8--10-8-8-8--10-8-8-8-8-8----|   
   G|10-8-8-8-8-8--10-8-8-8-8-8--10-8-8-8--10-8-8-8-8-8----|   
   C|10-8-8-8-8-8--10-8-8-8-8-8--10-8-8-8--10-8-8-8-8-8----|   
   Well, just repeat as needed....   
       
       
   Interlude: Clean guitar with effect.   
   D|----1-------1-------0-------0--|   
   A|--3---3---3---3---3---3---3---0|   
   F|2-------2-------0-------0------|   
   C|-------------------------------|  Repeat as need..   
   G|-------------------------------|   
   C|-------------------------------|   
       
       
   D|-------------------------------|   
   A|-------------------------------|   
   F|-------------------------------|   
   C|0-0-0-8-8-8-0-0-0-5-5-5-3-3-5-5| Repeat as need..   
   G|0-0-0-8-8-8-0-0-0-5-5-5-3-3-5-5|   
   C|0-0-0-8-8-8-0-0-0-5-5-5-3-3-5-5|   
     ...............................   
                |   
             Mute all   
 

Buď první, kdo ohodnotí tento článek.

Nový komentář

Přihlásit se
  Ještě nemáte vlastní web? Můžete si jej zdarma založit na Blog.cz.
 

Aktuální články

Reklama