Laichzeit - tab

22. května 2006 v 7:21 |  Tabulátory
  - Laichzeit    
     
                                             [Main]  
  e|----------------------------------------------|  
  B|----------------------------------------------|  
  G|----------------------------------------------|  
  D|--222-x-222-x-2x--2x--5x--4x------------------|  
  A|--222-x-222-x-2x--2x--5x--4x------------------|  
  D|--222-x-222-x-2x--2x--5x--4x------------------|  
     
  e|----------------------------------------------|  
  B|----------------------------------------------|  
  G|----------------------------------------------|  
  D|--222-x-222-x-2x--2/5/4-----------------------|  
  A|--222-x-222-x-2x--2/5/4-----------------------|  
  D|--222-x-222-x-2x--2/5/4-----------------------|  
     
                                                                 [Bridge]  
  e|--------------------------------------------------------------------|  
  B|--------------------------------------------------------------------|  
  G|--------------------------------------------------------------------|  
  D|--5--5--5--5--8-7--5--5--5--5--8--7-|-5--5--5--5--8-7--5--5--4/5-x--|  
  A|--5--5--5--5--8-7--5--5--5--5--8--7-|-5--5--5--5--8-7--5--5--4/5-x--|  
  D|--5--5--5--5--8-7--5--5--5--5--8--7-|-5--5--5--5--8-7--5--5--4/5-x--|  
     
  e|-------------------------------------------------------------------------|  
  B|-------------------------------------------------------------------------|  
  G|-------------------------------------------------------------------------|  
  D|-5--5--5--5--8-7--5--5--5--5--8--7-|-5--5--5--5--8-55555555-5x-5x-5x-5x--|  
  A|-5--5--5--5--8-7--5--5--5--5--8--7-|-5--5--5--5--8-55555555-5x-5x-5x-5x--|  
  D|-5--5--5--5--8-7--5--5--5--5--8--7-|-5--5--5--5--8-55555555-5x-5x-5x-5x--|  
  ____________________________________________________________________________  
     
  |  
     
     
 

Buď první, kdo ohodnotí tento článek.

Nový komentář

Přihlásit se
  Ještě nemáte vlastní web? Můžete si jej zdarma založit na Blog.cz.
 

Aktuální články

Reklama