Keine Lust - tab

22. května 2006 v 17:49 |  Tabulátory
 Author/Artist: Rammstein                                           
 Title: Keine Lust 
 Album: Reise,Reise 
   
 Sigo diciendo 
 Ich bin so verliabt 
 Afinacion 
   
 C-G-C-F-A-D        v-vibrato      *-harmonico-harmonic 
   
 -|----------------------------------------------------------------------------| 
 -|----------------------------------------------------------------------------| 
 -|----------------------------------------------------------------------------| 
 -|---3-----3/5-----3-----3/5----------------------------------------------|parte 1 
 -|-5---3/5---------5---3/5----------------------------------------------------| 
 -|----------------------------------------------------------------------------| 
   
   
 -|----------------------------------------------------------------------------| 
 -|----------------------------------------------------------------------------| 
 -|----------------------------------------------------------------------------| 
 -|-0-0-0-0-0-0-0------0-0-0-0-0-0-0------0-0-0-0-0-0-0------------------------| 
 -|-0-0-0-0-0-0-0--5v-0-0-0-0-0-0-0--5v-0-0-0-0-0-0-0-5v--------------------| 
 -|-0-0-0-0-0-0-0------0-0-0-0-0-0-0------0-0-0-0-0-0-0------------------------| 
   PM............      PM..........       PM........... 
   
 -|---------------------------------------------------------------------------| 
 -|---------------------------------------------------------------------------| 
 -|----------------8-5--------------------------------------------------------| 
 -|-0-0-0-0-0-0-0--x-x--------------------------------------------------------|parte 2 
 -|-0-0-0-0-0-0-0--6-3--------------------------------------------------------| 
 -|-0-0-0-0-0-0-0-------------------------------------------------------------| 
   PM............ 
   
 -|----------------------------------------------------------------------------| 
 -|----------------------------------------------------------------------------| 
 -|----------------------------------------------------------------------------| 
 -|-0-0-0-0-0-0-0--0-0-0-0-0-0-0--0-0-0-0-0-0-0--0-0-0-0-0-0-0-----------------|parte 3 
 -|-0-0-0-0-0-0-0--0-0-0-0-0-0-0--0-0-0-0-0-0-0--0-0-0-0-0-0-0-----------------| 
 -|-0-0-0-0-0-0-0--0-0-0-0-0-0-0--0-0-0-0-0-0-0--0-0-0-0-0-0-0-----------------| 
   PM............  PM...........  PM...........  PM........... 
   
 -|----------------------------------------------------------------------------| 
 -|----------------------------------------------------------------------------| 
 -|----------------------------------------------------------------------------| 
 -|-0-0-0-0-0-0----------------0-0-0-0-0-0-------------------------------------|parte 4 
 -|-0-0-0-0-0-0--*5-*5---------0-0-0-0-0-0--*5-*5------------------------------| 
 -|-0-0-0-0-0-0---------*3-*3--0-0-0-0-0-0---------*3-*3-----------------------| 
   PM..........               PM.......... 
   
 -|----------------------------------------------------------------------------| 
 -|----------------------------------------------------------------------------| 
 -|----------------------------------------------------------------------------| 
 -|-0-0-0-0--2-2-2-2--5-5-5-5--8-8-8-8--0-0-0-0--2-2-2-2--5-5-5-5--8-8-8-8-----|parte 5 
 -|-0-0-0-0--2-2-2-2--5-5-5-5--8-8-8-8--0-0-0-0--2-2-2-2--5-5-5-5--8-8-8-8-----| 
 -|-0-0-0-0--2-2-2-2--5-5-5-5--8-8-8-8--0-0-0-0--2-2-2-2--5-5-5-5--8-8-8-8-----| 
   
   
 -|----------------------------------------------------------------------------| 
 -|----------------------------------------------------------------------------| 
 -|----------------------------------------------------------------------------| 
 -|-12-12-12-12--7-7-7-7--5-5-5-5--8-8-8-8-------------------------------------| 
 -|-12-12-12-12--7-7-7-7--5-5-5-5--8-8-8-8-------------------------------------| 
 -|-12-12-12-12--7-7-7-7--5-5-5-5--8-8-8-8-------------------------------------| 
   
   
 -|----------------------------------------------------------------------------| 
 -|----------------------------------------------------------------------------| 
 -|----------------------------------------------------------------------------| 
 -|-12-12-12-12--7-7-7-7--5-5-5-5--0-0-0-0-------------------------------------| 
 -|-12-12-12-12--7-7-7-7--5-5-5-5--0-0-0-0-------------------------------------| 
 -|-12-12-12-12--7-7-7-7--5-5-5-5--0-0-0-0-------------------------------------| 
   
   
 -|----------------------------------------------------------------------------| 
 -|----------------------------------------------------------------------------| 
 -|----------------------------------------------------------------------------| 
 -|-12-12--7--5--8----12-12-12-12--7-7--5-5--8-8-8-8---------------------------|parte 6 
 -|-12-12--7--5--8----12-12-12-12--7-7--5-5--8-8-8-8---------------------------| 
 -|-12-12--7--5--8----12-12-12-12--7-7--5-5--8-8-8-8---------------------------| 
   
   
 -|----------------------------------------------------------------------------| 
 -|----------------------------------------------------------------------------| 
 -|----------------------------------------------------------------------------| 
 -|----------------------------------------------------------------------------|parte 7 
 -|-/b11--12p11---/b11--12p11---/b11-b12----p11--------------------------------| 
 -|----------------------------------------------------------------------------| 
    A el solo metanle compression sustainer y un chorus algo asi. 
   
 -|----------------------------------------------------------------------------| 
 -|----------------------------------------------------------------------------|parte 7° 
 -|----------------------------------------------------------------------------| 
 -|-0-0-0-0-0-0-------0-0-0-0-0-0--------0-0-0-0-0-0--------0-0-0-0-0-0--------| 
 -|-0-0-0-0-0-0-5*----0-0-0-0-0-0-5*-----0-0-0-0-0-0-5*-----0-0-0-0-0-0-5*-----| 
 -|-0-0-0-0-0-0-------0-0-0-0-0-0--------0-0-0-0-0-0--------0-0-0-0-0-0--------| 
  pm...........       pm.........        pm.........        pm......... 
   
 -|----------------------------------------------------------------------------| 
 -|----------------------------------------------------------------------------| 
 -|----------------------------------------------------------------------------| 
 -|-12-12-12-12---7-7---5-5---8-8----------------------------------------------|parte 8 
 -|-12-12-12-12---7-7---5-5---8-8----------------------------------------------| 
 -|-12-12-12-12---7-7---5-5---8-8----------------------------------------------| 
   
   
 -|----------------------------------------------------------------------------| 
 -|----------------------------------------------------------------------------| 
 -|----------------------------------------------------------------------------| 
 -|-12-12-12-12---7-7---5-5---8-8-8-8------------------------------------------|parte 9 
 -|-12-12-12-12---7-7---5-5---8-8-8-8------------------------------------------| 
 -|-12-12-12-12---7-7---5-5---8-8-8-8------------------------------------------| 
   
 parte1 x1 tiempo                                     México!!!!!!!!!!!!!!!! 
 parte2 x2 tiempos 
 parte3 x2 tiempos                                ojala le entiendan adios. 
 parte4 x2 tiempos 
 parte5 x1 tiempo 
 parte2 x1 tiempo                                    Te amo linda 
 parte3 x2 tiempos 
 parte4 x1 tiempo 
 parte5 x1 tiempo 
 parte6 x1 tiempo 
 parte3 x1 tiempo 
 parte7 x1 timepo-segunda guitarra parte3 x1 parte7° x2 
 parte3 x1 tiempo 
   
 

Buď první, kdo ohodnotí tento článek.

Nový komentář

Přihlásit se
  Ještě nemáte vlastní web? Můžete si jej zdarma založit na Blog.cz.
 

Aktuální články

Reklama