Hilf mir - tab

23. května 2006 v 12:45 |  Tabulátory
  Artist: Rammstein
Album: Rosenrot
Title: Hilf mir
  Tuning: C-G-C-F-A-D  
  Intro   (0:00)  
  D|-------------------------------------------------|
A|-------------------------------------------------|
F|-------------------------------------------------|
C|--444444444444444444444-----0003333--------------|
G|------------------44444-----0003333--------------|
C|------------------44444-----0003333--------------|
  Intro2    (0:09)       
  D|---------------------|---------------------------|
A|---------------------|---------------------------|
F|---------------------|---------------------------|
C|---44444------0003333|12-12-12-12-12-334---------| 3x
G|---44444------0003333|---------------334---------|
C|---44444------0003333|---------------334---------|
  Bridge   (1:16)     
  D|-----------------------------------------------------------------------------------|
A|-----------------------------------------------------------------------------------|
F|-----------------------------------------------------------------------------------|
C|---999999----11-11-11-11-11-11-11----12-12-12-12-12-12----14-14-14-14-14-14-14-----| 2x
G|---999999----11-11-11-11-11-11-11----12-12-12-12-12-12----14-14-14-14-14-14-14-----|
C|---999999----11-11-11-11-11-11-11----12-12-12-12-12-12----14-14-14-14-14-14-14-----|
  Intro2    (1:33)                 
  D|---------------------|---------------------------|
A|---------------------|---------------------------|
F|---------------------|---------------------------|
C|---44444------0003333|12-12-12-12-12-334---------| 2x
G|---44444------0003333|---------------334---------|
C|---44444------0003333|---------------334---------|
  Riff        (2:00)                     
  D|-----------|
A|-----------|
F|-----------|
C|---4444----| 4x
G|---4444----|
C|---4444----|
  Bridge   (2:18)   
  D|-----------------------------------------------------------------------------------|
A|-----------------------------------------------------------------------------------|
F|-----------------------------------------------------------------------------------|
C|---999999----11-11-11-11-11-11-11----12-12-12-12-12-12----14-14-14-14-14-14-14-----| 2x
G|---999999----11-11-11-11-11-11-11----12-12-12-12-12-12----14-14-14-14-14-14-14-----|
C|---999999----11-11-11-11-11-11-11----12-12-12-12-12-12----14-14-14-14-14-14-14-----|
  Chorus  (2:38)  
  D|-------------------------------------|
A|-------------------------------------|
F|-------------------------------------|
C|--4----------9--------12--------11---| 4x
G|--4----------9--------12--------11---|
C|--4----------9--------12--------11---|
  Riff2      (3:14)  
  D|------------------|
A|------------------|
F|------------------|
C|-4444444444444333-| 12x
G|-4444444444444333-|
C|-4444444444444333-|
  Riff3      (4:24)  
  D|---------------------------------------|
A|---------------------------------------|
F|---------------------------------------|
C|-444444----444444----4444444-----444444|
G|-444444----444444----4444444-----444444|
C|-444444----444444----4444444-----444444|
 

1 člověk ohodnotil tento článek.

Nový komentář

Přihlásit se
  Ještě nemáte vlastní web? Můžete si jej zdarma založit na Blog.cz.
 

Aktuální články

Reklama