Herzeleid -tab

22. května 2006 v 7:20 |  Tabulátory
  Herzeleid   Tab by Rammstein 
   
 Artist: Rammstein 
 Album:  Herzeleid 
 Title:  Herzeleid 
   
 drop D tuning 
   
    Riff 1                    Riff 2 
  e-----------------------      ----------------------| 
  b-----------------------      ----------------------| 
  g-----------------------      ----------------------| 
  d------------5--(5)--4-- x16  -2--4-4--5----4-------| x4 
  a------------5--(5)--4--      -2--4-4--5----4-------| 
  D-4--4-4--4--5--(5)--4--      -2--4-4--5----4--2-2--| 
    pm.......                                  pm.. 
   
   
    Bridge 1 
  e-------------------------    ------------------------| 
  b-------------------------    ------------------------| 
  g-------------------------    ------------------------| 
  d------------10--(10)--8-- x2 ------------8--(8)--7---| x2 
  a------------10--(10)--8--    ------------8--(8)--7---| 
  D-8--8-8--8--10--(10)--8--    -7--7-7--7--8--(8)--7---| 
    pm.......                  pm....... 
   
   
  e--------------------------------| 
  b--------------------------------| 
  g---h-------h----h----h----------| 
  d-7-8-----7-8--7-8--7-8----------| x2 
  a-7-8-----7-8--7-8--7-8----------| 
  D-7-8-8-8-7-8--7-8--7-8-8-8-8-8--| 
        pm.               pm..... 
   
  e--------------------------------| 
  b--------------------------------| 
  g---h-------h----h----h----------| 
  d-5-7-----5-7--5-7--5-7----------| x2 
  a-5-7-----5-7--5-7--5-7----------| 
  D-5-7-7-7-5-7--5-7--5-7-7-7-7-7--| 
        pm.               pm..... 
   
  e------------------------------------| 
  b------------------------------------| 
  g---h-------h----h----h--------------| 
  d-7-8-----7-8--7-8--7-8----------14--| 
  a-7-8-----7-8--7-8--7-8----------14--| 
  D-7-8-8-8-7-8--7-8--7-8-8-8-8-8--14--| 
        pm.               pm..... 
   
   
    Bridge 2 (solo) 
  e--------  -----------------------| 
  b--------  -----------------------| 
  g--------  -----------------------| 
  d-9------  ------------10--10--9--|  + Riff 1  x2 
  a-9------  ------------10--10--9--| 
  e-9------  -9--9-9--9--10--10--9--| 
   
              pm...... 
   
 solo 
 -------------------|--------------------| 
 -------------------|--------------------| 
 --2h4--------------|--------------------| 
 --2h4--------------|----------------4---| 
 -------------------|----------------4---| 
 -------------------|--------------------| 
                                                                 
 -----------------------------|--------------------|--------------------| 
 -----------------------------|--------------------|--------------------| 
 -------4r-2-------2----------|--------------------|--2h4---------------| 
 --6r-4------4---2-2---2-4----|----------------4---|--2-4---------------| 
 --------------4-----4---4----|------------------4-|--------------------| 
 -----------------------------|--------------------|--------------------| 
                                                                            
 -------------------|------------------|------------------|------------------| 
 -------------------|------------------|------------------|------------------| 
 -------------------|------------------|------------------|------------------| 
 -------------------|------------------|------------------|------------------| 
 -----------------9-|------------------|------------------|------------------| 
 -------------------|------------------|------------------|------------------| 
   
____________________________________________________________________________
 

Buď první, kdo ohodnotí tento článek.

Nový komentář

Přihlásit se
  Ještě nemáte vlastní web? Můžete si jej zdarma založit na Blog.cz.
 

Aktuální články

Reklama