Heirate mich - tab

22. května 2006 v 7:13 |  Tabulátory
 Heirate Mich 
   
                              [Main] 
 e|--------------------------------| 
 B|--------------------------------| 
 G|--------------------------------| 
 D|--2-x-2-x-2-x-2-x--5-2--4/5---| 
 A|--2-x-2-x-2-x-2-x--5-2--4/5---| 
 D|--2-x-2-x-2-x-2-x--5-2--4/3---| 
                 
                                        [Chorus] 
 e|--------------------------------------------| 
 B|--------------------------------------------| 
 G|--------------------------------------------| 
 D|--9----x---10----9---x-x-10----9-x-x-10-----| 
 A|--9----x---10----9---x-x-10----9-x-x-10-----| 
 D|--9----x---10----9---x-x-10----9-x-x-10-----| 
  |Dort bei den Glocken verbring ich die Nacht.| 
  |dort zwischen Schnecken ein einsames Tier...| 
   
 e|------------------------------------|-------------------| 
 B|------------------------------------|-------------------| 
 G|------------------------------------|-------------------| 
 D|--11-x-11-x-11-x-11--12-------------|--11--10-----------| 
 A|--11-x-11-x-11-x-11--12-------------|--11--10-----------| 
 D|--11-x-11-x-11-x-11--12-------------|--11--10-----------| 
  |tagsüber lauf ich der Nacht hinte...|...................| 
  |zum zweitenmal......................|entkommst du mir...| 
   
                                                        [Solo] 
 e|-5*-------------------------------------------------------| 
 B|-----7*---------------------------------------------------| 
 G|----------6^^7^6--6h7p6-----------------------6-7-6^^-----| 
 D|------------------------7-----------------7-9---------7-9-| 
 A|--------------------------7-9-7-10-9-9-10-----------------| 
 D|----------------------------------------------------------| 
              
 e|----------12-11-9----9---------------------------------| 
 B|-9-12p9-12--------12-----------------------------------| 
 G|-----------------------11---13-------13-------13-------| 
 D|-------------------------------11-11----11-11----11-11-| 
 A|-------------------------------------------------------| 
 D|-------------------------------------------------------| 
   
 e|-------------------------------------------| 
 B|-14-13h14-12h14-14p12----------------------| 
 G|----------------------13-13h14p13-13/16~~~-| 
 D|-------------------------------------------| 
 A|-------------------------------------------| 
 D|-------------------------------------------| 
 

Buď první, kdo ohodnotí tento článek.

Nový komentář

Přihlásit se
  Ještě nemáte vlastní web? Můžete si jej zdarma založit na Blog.cz.
 

Aktuální články

Reklama