Engel - tab

22. května 2006 v 7:26 |  Tabulátory
 Engel   Tab by Rammstein 
   
 Artist: Rammstein 
 Album:  Sehnsucht 
 Title:  Engel 
   
 Intro: 
 (Played by Keyboard - transcribed for Guitar) 
   
  |v   v   v   v   v   v   v   v   |v   v   v   v   v   v   v   v   | 
 e|10------------------------------|--------------------------------| 
 b|------------10--13----------10--|12--------------10--------------| 
 g|--------------------------------|------------12------------------| 
 D|--------------------------------|--------------------------------| 
 A|--------------------------------|--------------------------------| 
 D|--------------------------------|--------------------------------| 
   
  |v   v   v   v   v   v   v   v   |v   v   v   v   v   v   v   v   | 
 e|10------------------------------|--------------------------------| 
 b|------------10--13----------10--|12------------------------------| 
 g|--------------------------------|------------12------------------| 
 D|--------------------------------|----------------12--------------| 
 A|--------------------------------|--------------------------------| 
 D|--------------------------------|--------------------------------| 
   
 Main Riff: 
   
  |v   v   v   v   v   v   v   v   | 
 e|--------------------------------| 
 b|--------------------------------| 
 g|5-7-----8-7-----5-7---5-7---8-7-| 
 D|5-7-----8-7-----5-7---5-7---8-7-| 
 A|3-5-x-x-6-5-x-x-3-5-x-3-5-x-6-5-| 
 D|--------------------------------| 
   
 Chorus 
 (Play it clean for the best effect) 
 ||------------------------------------||----------------------------|| 
 ||------------------------------------||----------------------------|| 
 ||-7-------5--------------------------||---7------9------12---------|| 
 ||-7-------5-------5--------0---------||---7------9------12---------|| 
 ||-5-------3-------5--------0---------||---5------7------10---------|| 
 ||-----------------5--------0---------||----------------------------|| 
   Just as the clouds...                  Alone in fear... 
   
 Bass Tab: 
 (Played constantly over the whole song) 
   
  |:v   v   v   v   v   v   v   v   :|rep. 3x   |v   v   v   v   v   v   v   v   | 
 g|:--------------------------------:|          |--------------------------------| 
 D|:--------------------------------:|          |--------------------------------| 
 A|:3-5-5-5-6-5-5-5-3-5---3-5---6-5-:|          |3-5-5-5-6-5-5-5-3-5---3-5-8-8-8-| 
 E|:--------------------------------:|          |--------------------------------| 
   
   
 

Buď první, kdo ohodnotí tento článek.

Nový komentář

Přihlásit se
  Ještě nemáte vlastní web? Můžete si jej zdarma založit na Blog.cz.
 

Aktuální články

Reklama