Eifersucht - tab

22. května 2006 v 7:29 |  Tabulátory

 Artist: Rammstein 
 Album:  Sehnsucht 
 Title:  Eifersucht 
   
 Drop D tuning 
   
 Keyboard Intro: 
 ||--------------------||--------------------|| 
 ||--------------------||--------------------|| 
 ||--------------------||--------------------|| 
 ||-2--2-2-2--2--2-4-5-||-2--2-2-2--2--2-0---|| 
 ||--------------------||------------------2-|| 
 ||--------------------||--------------------|| 
   
 Riff 1: 
 ||----------------------------|| 
 ||----------------------------|| 
 ||----------------------------|| 
 ||----------------------------|| 
 ||-2--2--2-2--2--2--2-2-4--5--|| 
 ||-2--2--2-2--2--2--2-2-4--5--|| 
    pm...................] 
   
 Riff 2: 
 ||----------------------------|| 
 ||----------------------------|| 
 ||----------------------------|| 
 ||----------------------------|| 
 ||-0-----2--3------0-----2--3-|| 
 ||-0-----2--3------0-----2--3-|| 
   
 Verse Riff: 
 ||----------------------------|| ||----------|| 
 ||----------------------------|| ||----------|| 
 ||----------------------------|| ||----------|| 
 ||----------------------------|| ||---4^~^~^-|| 
 ||-3--3--3-3--3--3--3-3-3--5--|| ||----------|| 
 ||-3--3--3-3--3--3--3-3-3--5--|| ||----------|| 
    pm....................] 
 

Buď první, kdo ohodnotí tento článek.

Nový komentář

Přihlásit se
  Ještě nemáte vlastní web? Můžete si jej zdarma založit na Blog.cz.
 

Aktuální články

Reklama