Du riechst so gut - tab

22. května 2006 v 7:17 |  Tabulátory
 06 - Du riechst so gut   
   
                                                                      [Intro] 
 e|------------------------------------|------------------------------------| 
 B|---3-4---3-4---3-4---3---3-4---3---3|---3-4---3-4----3-4---3---3-4---3---| 
 G|-0-----0-----0-----0---0-----0---0--|-0-----0-----0------0---0-----0-----| 
 D|------------------------------------|------------------------------------| 
 A|------------------------------------|------------------------------------| 
 D|------------------------------------|------------------------------------| 
   
 e|------------------------------------|------------------------------------| 
 B|---3-4---3-4----3-4---3---3-4---3---|---3-4---3-4---3-4---3---3-4--------| 
 G|-0-----0-----0------0---0-----0-----|-0-----0-----0-----0---0------------| 
 D|------------------------------------|------------------------------------| 
 A|------------------------------------|------------------------------------| 
 D|------------------------------------|------------------------------------| 
   
                                                               [Main] 
 e|-----------------------------------------------------------------| 
 B|------------------------------------------------------------10^--| 
 G|-----------------------------------------------------------------| 
 D|-----------------------------------------------------------------| 
 A|--0-1h--0-1h--0-1h--1--0-1h--0-x-0-1h--0-1h--0-1h--1--0-1h-------| 
 D|--0-1h--0-1h--0-1h--1--0-1h--0-x-0-1h--0-1h--0-1h--1--0-1h-------| 
                                                                                    
                                                     [00:27<->00:31]   
 e|----------------------------------------------------------------| 
 B|-----------------------------------------------------------10^--| 
 G|----------------------------------------------------------------| 
 D|----------------------------------------------------------------| 
 A|--1--1--0-1h--0-1h--1--0-1h--0-x-0-1h--0-1h--0-1h--1--0-1h------| 
 D|--1--1--0-1h--0-1h--1--0-1h--0-x-0-1h--0-1h--0-1h--1--0-1h------| 
   
                                                               [Chorus]  
 e|--------------|-------------|--------------|-----------------------| 
 B|--------------|-------------|--------------|-----------------------| 
 G|----7----10---|----8---7----|--7----10-----|-----------------------| 
 D|----7----10---|----8---7----|--7----10-----|------5--8--7----------| 
 A|----5-----8---|----6---5----|--5----8------|------5--8--7----------| 
 D|--------------|-------------|--------------|------5--8--7----------| 
  |Du riechst so.|guuuuuuuut...|Du ri..so gut.|İch ger 'hinter her....| 
                                                    
 e|--------------|-------------|---------------------|------| 
 B|--------------|-------------|---------------------|------| 
 G|--5----10-----|-------------|---------------------|------| 
 D|--5----10-----|--0----------|--3-----1-----0------|------| 
 A|--3----8------|--0----------|--3-----1-----0------|------| 
 D|--------------|--0----------|--3-----1-----0------|------| 
  |Du riechst so.|guuuuuuuut...|Gleich hab ich dich..| 
   
                                                     [Solo] 
 e|-------------------------------------------------------| 
 B|-------------------------------------------------------| 
 G|--12p-0-12p-0-12p-0-12p-0-11p-0-11p-0-11p-0-12p-0------| 
 D|-------------------------------------------------------| 
 A|-------------------------------------------------------| 
 D|-------------------------------------------------------| 
   
 e|-------------------------------------------------------| 
 B|-------------------------------------------------------| 
 G|-------------------------------------------------------| 
 D|--12p-0-12p-0-12p-0-12p-0-14p-0-12p-0-14p-0-12p-0------| 
 A|-------------------------------------------------------| 
 D|-------------------------------------------------------| 
____________________________________________________________________________
 

Buď první, kdo ohodnotí tento článek.

Nový komentář

Přihlásit se
  Ještě nemáte vlastní web? Můžete si jej zdarma založit na Blog.cz.
 

Aktuální články

Reklama