Der Meister - tab

22. května 2006 v 7:11 |  Tabulátory
 02 - Der Meister   
   
                                                    [00:00<->00:28]  
 e|-------------------------------|-------------------------------| 
 B|-------------------------------|-------------------------------| 
 G|---------7h8-------7h8-----7h8-|---------7h8-------7h8-----5h7-| 
 D|-0-0-0-0-7h8-0-0-0-7h8-0-0-7h8-|-0-0-0-0-7h8-0-0-0-7h8-0-0-5h7-| 
 A|-------------------------------|-------------------------------| 
 D|-------------------------------|-------------------------------| 
   
                                    [00:29<->00:36] 
 e|-----------------------------------------------| 
 B|-----------------------------------------------| 
 G|-7--x--5--x--7--x--5--x--7--x--5--x--7--x--5/8-| 
 D|-7--x--5--x--7--x--5--x--7--x--5--x--7--x--5/8-| 
 A|-5--x--3--x--5--x--3--x--5--x--3--x--5--x--3/6-| 
 D|-----------------------------------------------| 
   
                       [00:37<->00:40] 
 e|----------------------------------| 
 B|----------------------------------| 
 G|-9---7---9---7---9---7---9---7/10-| 
 D|-9---7---9---7---9---7---9---7/10-| 
 A|-7---5---7---5---7---5---7---5/8--| 
 D|----------------------------------| 
   
                                                    [01:10<->01:39]  
 e|-------------------------------|-------------------------------| 
 B|-------------------------------|-------------------------------| 
 G|---------7h8-------7h8-----7h8-|---------7h8-------7h8---------| 
 D|-0-0-0-0-7h8-0-0-0-7h8-0-0-7h8-|-0-0-0-0-7h8-0-0-0-7h8---------| 
 A|-------------------------------|-------------------------------| 
D|-------------------------------|-------------------------------|
 

Buď první, kdo ohodnotí tento článek.

Nový komentář

Přihlásit se
  Ještě nemáte vlastní web? Můžete si jej zdarma založit na Blog.cz.
 

Aktuální články

Reklama