Das alte Leid - tab

22. května 2006 v 7:18 |  Tabulátory
  Das alte Leid  
   
                                  [Intro] 
 e|-------------------------------------| 
 B|-------------------------------------| 
 G|-------------------------------------| 
 D|--2-4h--2-4h--2-4h--2-4/7--7--2------| 
 A|--2-4h--2-4h--2-4h--2-4/7--7--2------| 
 D|--2-4h--2-4h--2-4h--2-4/7--7--2------| 
   
                                                      [Main] 
 e|--------------------------------------------------------| 
 B|--------------------------------------------------------| 
 G|--------------------------------------------------------| 
 D|--22-x-2222-x-22-x-2222-x-22-x-2222-x-22-x-2222-x--5^---| 
 A|--22-x-2222-x-22-x-2222-x-22-x-2222-x-22-x-2222-x-------| 
 D|--22-x-2222-x-22-x-2222-x-22-x-2222-x-22-x-2222-x-------| 
   
 e|--------------------------------------------------------| 
 B|--------------------------------------------------------| 
 G|--------------------------------------------------------| 
 D|--22-x-2222-x-22-x-2222-x-22-x-2222-x-22-x-2222-x-------| 
 A|--22-x-2222-x-22-x-2222-x-22-x-2222-x-22-x-2222-x-------| 
 D|--22-x-2222-x-22-x-2222-x-22-x-2222-x-22-x-2222-x-------| 
   
                                                                     [Bridge] 
 e|--------------------------------------------------|----------------------| 
 B|--------------------------------------------------|----------------------| 
 G|--------------------------------------------------|----------------------| 
 D|--22-x-2222-x-22-x-2222-x-22-x-2222-x-22-x-2222-x---2--------------------| 
 A|--22-x-2222-x-22-x-2222-x-22-x-2222-x-22-x-2222-x---2--------------------| 
 D|--22-x-2222-x-22-x-2222-x-22-x-2222-x-22-x-2222-x---2--------------------| 
                                                     |weiss ich endlich ....| 
   
                                                          [Dark Seconds] 
 e|--------------------------------------------------------------------| 
 B|--------------------------------------------------------------------| 
 G|--------------------------------------------------------------------| 
 D|-22-x-22-x-22-x-|-22-x-22-x-22-x-|-22-x-22-x-22-x-|-22-x-22-x-2~----| 
 A|-22-x-22-x-22-x-|-22-x-22-x-22-x-|-22-x-22-x-22-x-|-22-x-22-x-2~----| 
 D|-22-x-22-x-22-x-|-22-x-22-x-22-x-|-22-x-22-x-22-x-|-22-x-22-x-2~----| 
   
   
 e|--------------| 
 B|--------------| 
 G|--------------| 
 D|--2-----------| 
 A|--2-----------| 
 D|--2-----------| 
____________________________________________________________________________
 

Buď první, kdo ohodnotí tento článek.

Nový komentář

Přihlásit se
  Ještě nemáte vlastní web? Můžete si jej zdarma založit na Blog.cz.
 

Aktuální články

Reklama