Dalailama - tab

22. května 2006 v 17:49 |  Tabulátory
  Author/Artist: Rammstein  
  Title: Dalailama  
  Album: Reise Reise  
     
  C-G-C-F-A-D  
     
                          
  d|-------------------[Intro/Guitar 1]-|  
  A|------------------------------------|  
  F|-----7x-----7x------7x-7x-----------|  
  C|-----7x-----7x------7x-7x-----------|  
  G|--5--5x--5--5x--5-5-5x-5x--5-5-6-0--|  
  C|--0------0------0-0--------0-0-6-0--|  
   |Ein Flugzeug liegt im Abendwind...An|  
   |In drei Stunden sind sie da......zum|  
     
  d|------------------------------------|  
  A|------------------------------------|  
  F|-----7x-----7x------7x-7x-----------|  
  C|-----7x-----7x------7x-7x-----------|  
  G|--5--5x--5--5x--5-5-5x-5x--5-5-6-0--|  
  C|--0------0------0-0--------0-0-6-0--|  
   |Bord ist auch ein Mann mit Kind.....|  
   |Wiegenfeste der Mama................|  
     
  d|-------------------------------------|  
  A|-------------------------------------|  
  F|-----7x-----7x------7x-7x------------|  
  C|-----7x-----7x------7x-7x------------|  
  G|--5--5x--5--5x--5-5-5x-5x---5-5-6-0--|  
  C|--0------0------0-0---------0-0-6-0--|  
   |Sie sitzen sicher sitzen warm.....und|  
   |Die Sicht ist gut der Himmel.........|  
     
  d|------------------------------------|  
  A|------------------------------------|  
  F|-----7x-----7x------7x-7x-----------|  
  C|-----7x-----7x------7x-7x------6----|  
  G|--5--5x--5--5x--5-5-5x-5x--5-5-6----|  
  C|--0------0------0-0--------0-0-6----|  
   |gehen so dem Schlaf ins Garn........|  
   |klar................................|                                                               
     
  d|--------------------[Intro/Guitar 2]-|  
  A|-------------------------------------|  
  F|-------------------------------------|  
  C|-------------------------------------|  
  G|-----5------5-------5--5-------------|  
  C|--0------0------0-0---------0-0-6-0--|  
     
  d|------------------------------------|  
  A|------------------------------------|  
  F|------------------------------------|  
  C|------------------------------------|  
  G|-----5------5-------5--5------------|  
  C|--0------0------0-0--------0-0-6-0--|  
     
  d|-------------------------------------|  
  A|-------------------------------------|  
  F|-------------------------------------|  
  C|-------------------------------------|  
  G|-----5------5-------5--5-------------|  
  C|--0------0------0-0---------0-0-6-0--|  
     
  d|------------------------------------|  
  A|------------------------------------|  
  F|------------------------------------|  
  C|------------------------------------|  
  G|-----5------5-------5--5------------|  
  C|--0------0------0-0--------0-0-6----|  
                                                 
  d|-------[Verse/Guitar 1/Guitar 2]-|  
  A|---------------------------------|  
  F|---------------------------------|  
  C|---------------------------------|  
  G|--0-0x--0-0x--0-0-0x-0x-0-0-6-0--|  
  C|--0-0x--0-0x--0-0-0x-0x-0-0-6-0--|  
   |Weiter, weiter ins Verderben.....|    
   |Der Mensch gehört nicht in die...|  
     
  d|----------------------------------|  
  A|----------------------------------|  
  F|----------------------------------|  
  C|----------------------------------|  
  G|--0-0x--0-0x--0-0-0x-0x-0-0-6-0---|  
  C|--0-0x--0-0x--0-0-0x-0x-0-0-6-0---|  
   |..................................|  
   |So der Herr im Himmel ruft........|  
     
  d|---------------------------------|  
  A|---------------------------------|  
  F|---------------------------------|  
  C|---------------------------------|  
  G|--0-0x--0-0x--0-0-0x-0x-0-0-6-0--|  
  C|--0-0x--0-0x--0-0-0x-0x-0-0-6-0--|  
   |Wir müssen leben bis wir sterben.|  
   |seine Söhne auf dem Wind.........|                             
     
  d|--------------------------------|  
  A|--------------------------------|  
  F|--------------------------------|  
  C|--------------------------------|  
  G|--0-0x--0-0x--0-0-0x-0x-0-0-6---|  
  C|--0-0x--0-0x--0-0-0x-0x-0-0-6---|  
   |................................|  
   |Bringt mir dieses Menschenkind..|  
                                                                                        
  d|-------------------------------[Bridge/Guitar 1]-|  
  A|-------------------------------------------------|  
  F|-14-14-14-14-14-14-14-14-13-13-13-13-13-13-13-13-|  
  C|-x--x--x--x--x--x--x--x--x--x--x--x--x--x--x--x--|  
  G|-12-12-12-12-12-12-12-12-12-12-12-12-12-12-12-12-|  
  C|-------------------------------------------------|  
   |Aus den Wolken tropft ein Chor...................|   
     
     
  d|---------------------------------------|  
  A|---------------------------------------|  
  F|-14-14-14-14-7-7-7-7-7-7-7-7-7-7-7-7-7-|  
  C|---------------------------------------|  
  G|-12-12-12-12-5-5-5-5-5-5-5-5-5-5-5-5-5-|  
  C|---------------------------------------|  
   |Kriecht sich in das kleine Ohr.........|  
     
                                                         
  d|---------------[Bridge/Guitar 2]-|  
  A|---------------------------------|  
  F|---------------------------------|  
  C|-8-8-8-8-8-8-8-8-8-8-8-8-8-8-7-7-|  
  G|-8-8-8-8-8-8-8-8-8-8-8-8-8-8-7-7-|  
  C|-8-8-8-8-8-8-8-8-8-8-8-8-8-8-7-7-|  
     
  d|---------------------------------|  
  A|---------------------------------|  
  F|---------------------------------|  
  C|-5-5-5-5-5-5-5-5-7-7-7-7-7-7-7-7-|  
  G|-5-5-5-5-5-5-5-5-7-7-7-7-7-7-7-7-|  
  C|-5-5-5-5-5-5-5-5-7-7-7-7-7-7-7-7-|  
                                                        
  d|--15----|--16------|--13----16-----|--8----|  
  A|-------------------------------------------|  
  F|--12----|--13------|--10----13-----|--5----|  
  C|-------------------------------------------|  
  G|-----------------------[Keyboard/Chorus 1]-|  
  C|-------------------------------------------|  
   |Komm her|bleib hier|Wir sind gut zu|dir....|  
   |Komm her|bleib hier|Wir sind Brüder|dir....|  
     
     
  d|---15-----------------------------|---16-----------------------|  
  A|---------------------------------------------------------------|  
  F|---12-----------------------------|---13-----------------------|  
  C|---------------------------------------------------------------|  
  G|-------------------------------------------[Keyboard/Chorus 2]-|  
  C|---------------------------------------------------------------|  
   |Der Vater hält das Kind jetzt fest|Hat es sehr an sich gepresst|  
   |Doch die Angst kennt kein Erbarmen|o der Vater mit den Armen...|  
     
  d|---13----16------------------|--8----|  
  A|-------------------------------------|  
  F|---10----13------------------|--5----|  
  C|-------------------------------------|  
  G|-------------------------------------|  
  C|-------------------------------------|  
   |Bemerkt nicht dessen Atemnot.|.......|  
   |Drückt die Seele aus dem Kind|.......|  
     
  d|---13----16------------------|--8-----------|  
  A|--------------------------------------------|  
  F|---10----13------------------|--5-----------|  
  C|--------------------------------------------|  
  G|--------------------------------------------|  
  C|--------------------------------------------|  
     
  d|---15-----------------------------|---16--------------------|  
  A|------------------------------------------------------------|  
  F|---12-----------------------------|---13--------------------|  
  C|------------------------------------------------------------|    
  G|------------------------------------------------------------|  
  C|------------------------------------------------------------|  
   |Doch die Angst kennt kein Erbarmen|o der Vater mit den Armen|  
   |Drückt die Seele aus dem Kind|Diese setzt...|  
     
 

Buď první, kdo ohodnotí tento článek.

Nový komentář

Přihlásit se
  Ještě nemáte vlastní web? Můžete si jej zdarma založit na Blog.cz.
 

Aktuální články

Reklama