Bück dich - tab

22. května 2006 v 7:27 |  Tabulátory
 Artist: Rammstein 
 Album:  Sehnsucht 
 Title:  Buck Dich 
    
 e|---------------------------------------------- 
 B|---------------------------------------------- 
 G|---------------------------------------------- 
 D|-0--3--2--3--5--3---0-2-3-0------------------- 
 A|-0--3--2--3--5--3---0-2-3-0------------------- 
 D|-0--3--2--3--5--3---0-2-3-0------------------- 
   
 End 
   
 e|---------------------------------------------- 
 B|---------------------------------------------- 
 G|---------------------------------------------- 
 D|-1-0------------------------------------------ 
 A|-1-0------------------------------------------ 
 D|-1-0------------------------------------------ 
   
 

Buď první, kdo ohodnotí tento článek.

Nový komentář

Přihlásit se
  Ještě nemáte vlastní web? Můžete si jej zdarma založit na Blog.cz.
 

Aktuální články

Reklama