Benzin - tab

23. května 2006 v 12:40 |  Tabulátory
 Artist: Rammstein 
 Album:  Rosenrot 
 Title:  Benzin 
   
 Intro 
 D|--------------------------------------------------| 
 A|---2---1-----2---1--/5------2---1-----2---1-------| 
 F|---------------------------------------------0----|    2x 
 C|--------------------------------------------------| 
 G|--------------------------------------------------| 
 C|--------------------------------------------------| 
   
 Riff {play this without lifting your finger from the fredboard} 
 D|-----------------------------------| 
 A|-----------------------------------| 
 F|-----------------------------------| 
 C|00000000000000000000000000000000000|  2x 
 G|00000000000000000000000000000000000| 
 C|33333333111111113333333311111111555| 
   
 verse 
 D|--------------------------------------------------| 
 A|---2---1-----2---1--/5------2---1-----2---1-------| 
 F|---------------------------------------------0----|    2x 
 C|--------------------------------------------------| 
 G|--------------------------------------------------| 
 C|--------------------------------------------------| 
   
 Refrain 
 D|------------------------------------------------| 
 A|------------------------------------------------| 
 F|------------------------------------------------| 
 C|--0----1----0---0-0-0-1/2-----0----1----0--1/2--| 
 G|--0----1----0---0-0-0-1/2-----0----1----0--1/2--| 
 C|--0----1----0---0-0-0-1/2-----0----1----0--1/2--| 
                   ----- 
                {palm muted} 
 verse 
 D|--------------------------------------------------| 
 A|---2---1-----2---1--/5------2---1-----2---1-------| 
 F|---------------------------------------------0----|     
 C|--------------------------------------------------| 
 G|--------------------------------------------------| 
 C|--------------------------------------------------| 
   
 refrain 
 D|----------------------------------------------| 
 A|----------------------------------------------| 
 F|----------------------------------------------| 
 C|--0----1----0---0-0-0-1/2-----0----1----0--1/2|    2x 
 G|--0----1----0---0-0-0-1/2-----0----1----0--1/2|    
 C|--0----1----0---0-0-0-1/2-----0----1----0--1/2| 
   
 riff {play this without lifting your finger from the fredboard} 
 D|-----------------------------------| 
 A|-----------------------------------| 
 F|-----------------------------------| 
 C|00000000000000000000000000000000000|  2x 
 G|00000000000000000000000000000000000| 
 C|33333333111111113333333311111111555| 
   
 fill 
 D|--------------------------------------------------| 
 A|---2---1-----2---1--/5------2---1-----2---1-------| 
 F|---------------------------------------------0----|    2x 
 C|--------------------------------------------------| 
 G|--------------------------------------------------| 
 C|--------------------------------------------------| 
   
 prechorus {play this without lifting your finger from the fredboard} 
 D|-----------------------------------| 
 A|-----------------------------------| 
 F|-----------------------------------| 
 C|00000000000000000000000000000000000|  
 G|00000000000000000000000000000000000| 
 C|33333333111111113333333311111111555| 
   
 refrain 
 D|----------------------------------------------| 
 A|----------------------------------------------| 
 F|----------------------------------------------| 
 C|--0----1----0---0-0-0-1/2-----0----1----0--1/2|    
 G|--0----1----0---0-0-0-1/2-----0----1----0--1/2|    
 C|--0----1----0---0-0-0-1/2-----0----1----0--1/2| 
   
 riff {play this without lifting your finger from the fredboard} 
 D|-----------------------------------| 
 A|-----------------------------------| 
 F|-----------------------------------| 
 C|00000000000000000000000000000000000|  
 G|00000000000000000000000000000000000| 
C|33333333111111113333333311111111555|
 

Buď první, kdo ohodnotí tento článek.

Nový komentář

Přihlásit se
  Ještě nemáte vlastní web? Můžete si jej zdarma založit na Blog.cz.
 

Aktuální články

Reklama