Asche zu Asche - tab

22. května 2006 v 7:14 |  Tabulátory
 e|------------------------------------------------------| 
 B|------------------------------------------------------| 
 G|------------------------------------------------------| 
 D|------------------------------------------------------| 
 A|--5p-----0-0--7p-----0-0--8p-----0--7p-----0--5p------| 
 E|--3p-[0]-0-0--5p-[0]-0-0--6p-[0]-0--5p-[0]-0--3p-[0]--| 
   
   
                                          [Bridge]         
 e|---------------------------|------------------| 
 B|---------------------------|------------------| 
 G|---------------------------|------------------| 
 D|---------------------------|------------------| 
 A|--555-x-555-x-555-x-555-x--|------------------| 
 E|--333-x-333-x-333-x-333-x--|------------------| 
  |...........................|warmer körper.....|                
 ____________________________________________________________________________ 
   
 05 - Seemann 
   
                                                             [Bass]  
 G|---------18-------------16-------------14--------------13------| 
 D|-----13------13-----13------13-----13-------13-----13------13--| 
 A|--0--------------0--------------0---------------0--------------| 
 E|---------------------------------------------------------------| 
  |Komm............................................in.............| 
   
 G|---------11------------11------------13-------------13------| 
 D|------9------9------9------9------9------9------10------10--| 
 A|--11------------11------------11------------11--------------| 
 E|------------------------------------------------------------| 
  |mein Boot...................................................| 
   
 G|-------------------------------------------------------------| 
 D|---------14-------------13-------------11-------------9------| 
 A|-----11------11-----11------11-----11------11-----11-----11--| 
 E|--9--------------9--------------9--------------9-------------| 
  |ein Sturm kommt auf.............und es wird..................| 
   
 G|--------------------------------------------------------------| 
 D|---------11-------------10-------------11-------------11------| 
 A|-----11------11-----11------11-----11------11-----11------11--| 
 E|--9--------------9--------------9--------------9--------------| 
  |Nacht.........................................................| 
   
                                                                            [Chorus] 
 e|----------------------------------------------------------------| 
 B|----------------------------------------------------------------| 
 G|----------------------------------------------------------------| 
 D|--11--------------------|-9----------|-7----------|-6-----------| 
 A|--11--------------------|-9----------|-7----------|-6-----------| 
 D|--11--------------------|-9----------|-7----------|-6-----------| 
____________________________________________________________________________
 

Buď první, kdo ohodnotí tento článek.

Nový komentář

Přihlásit se
  Ještě nemáte vlastní web? Můžete si jej zdarma založit na Blog.cz.
 

Aktuální články

Reklama