America - tab 2 část

22. května 2006 v 18:02 |  Tabulátory
 Solo:                                                     
 -------------------------|-------------------------| 
 -------------------------|-------------------------| 
 -------------------------|-------------------------| 
 -------------------------|-------------------------| 
 -------------------------|-------------------------| 
 --0--2--2--2--2b---0--2--|--2--2--2--2--0--2b---2--| 
  
                                                   
 -------------------------|------------------------| 
 -------------------------|------------------------| 
 -------------------------|------------------------| 
 -------------------------|------------------------| 
 -------------------------|------------------------| 
 --0--2--2--2--2b---0--2--|--2--2--2--2--5~---0~---| 
  
                                                   
 -------------------------|-------------------------| 
 -------------------------|-------------------------| 
 -------------------------|-------------------------| 
 -------------------------|-------------------------| 
 -------------------------|-------------------------| 
 --0--2--2--2--2b---0--2--|--2--2--2--2--0--2b---2--| 
  
                                                    
 -------------------------|------------------------| 
 -------------------------|------------------------| 
 -------------------------|------------------------| 
 -------------------------|------------------------| 
 -------------------------|------------------------| 
 --0--2--2--2--2b---0--2--|--2--2--2--2--5~---0~---| 
  
  
 While keyboard solo, play this:                             
 -------------------|--------------------| 
 --6----------------|--10----------------| 
 --5----------------|--9-----------------| 
 --3----------------|--7-----------------| 
 -------------------|--------------------| 
 -------------------|--------------------| 
  
                                         
 ---------------------|------------------| 
 --10--5--------------|------------------| 
 --9---4--------------|------------------| 
 --7---2--------------|------------------| 
 ---------------------|------------------| 
 ---------------------|------------------| 
  
                                        
 -------------------|--------------------| 
 --6----------------|--10----------------| 
 --5----------------|--9-----------------| 
 --3----------------|--7-----------------| 
 -------------------|--------------------| 
 -------------------|--------------------| 
  
                                          
 ---------------------|------------------| 
 --10--5--------------|------------------| 
 --9---4--------------|------------------| 
 --7---2--------------|------------------| 
 ---------------------|------------------| 
 ---------------------|------------------| 
  
  
 Solo (Again):                                                   
 -------------------------|------------------------| 
 -------------------------|------------------------| 
 -------------------------|------------------------| 
 -------------------------|------------------------| 
 -------------------------|------------------------| 
 --0--2--2--2--2b---0--2--|--2--2--2--2--5~---0~---| 
  
  
 Chorus: two play                                                   
  
  
 Ending:                                                 
 -------------------------|-------------------------| 
 -------------------------|-------------------------| 
 -------------------------|-------------------------| 
 -------------------------|-------------------------| 
 -------------------------|-------------------------| 
 --0--2--2--2--2b---0--2--|--2--2--2--2--0--2b---2--| 
  
                                                    
 -------------------------|-----------------------| 
 -------------------------|-----------------------| 
 -------------------------|-----------------------| 
 -------------------------|-----------------------| 
 -------------------------|-----------------------| 
 --0--2--2--2--2b---0--2--|--2--2--2--2--5~-------| 
  
                                                     
 -------------------------|-------------------------| 
 -------------------------|-------------------------| 
 -------------------------|-------------------------| 
 -------------------------|-------------------------| 
 -------------------------|-------------------------| 
 --0--2--2--2--2b---0--2--|--2--2--2--2--0--2b---2--| 
  
                                                          
 -------------------------|-----------------------|------|| 
 -------------------------|-----------------------|------|| 
 -------------------------|-----------------------|------|| 
 -------------------------|-----------------------|------|| 
 -------------------------|-----------------------|------|| 
 --0--2--2--2--2b---0--2--|--2--2--2--2--5~-------|------|| 
  
 

Buď první, kdo ohodnotí tento článek.

Nový komentář

Přihlásit se
  Ještě nemáte vlastní web? Můžete si jej zdarma založit na Blog.cz.
 

Aktuální články

Reklama