Adios - tab

22. května 2006 v 17:44 |  Tabulátory
 Artist: Rammstein 
 Album:  Mutter 
 Title:  Adios 
   
 ( Drop D tuning ) 
   
  intro 
            
           e----------------------------------------------------------- 
           B----------------------------------------------------------- 
           G-------------------10-10-10-10/12-12-12-7--7-7-7-7-7/5-5/4- 
           D-8-8-8-8-8-8-8-8---10-10-10-10/12-12-12-7--7-7-7-7-7/5-5/4- 
           A-8-8-8-8-8-8-8-8----8--8--8--8/10-10-10-5--5-5-5-5-5/3-3/2- 
           D-8-8-8-8-8-8-8-8------------------------------------------- 
            
           Main Riff 
            
           e------------------------------------------------------------- 
           B------------------------------------------------------------- 
           G---5-7------------------------------------------------------- 
           D-3-5-7------------------------------------------------------- 
           A-3-3-5-------------3h5---------------3h5--------------------- 
           D-3-----0-0-0-0-0-0-----0-0-0-0-0-0-0-----0-0-0-0-0-0-0-0-0-0- 
   
 solo 
   
 e|-----------------------------------------------------------| 
 b|-----------------------------------------------------------| 
 G|-----------------------------------------------------------| 
 D|--5-7-7--5-7-7--5-7-7-5-3-0--5-7-7--5-7-7--5-7-7-7-5-3-0---| 
 a|-----------------------------------------------------------| 
D|-----------------------------------------------------------|
 

Buď první, kdo ohodnotí tento článek.

Nový komentář

Přihlásit se
  Ještě nemáte vlastní web? Můžete si jej zdarma založit na Blog.cz.
 

Aktuální články

Reklama